HOME
 
         
Handsome Family

So Much Wine 

Up Falling Rock Hill

.

.

So Much Wine (Handsome Family)

Posted by Fatelvis and transcribed by Stephen McCann 


In my notation
^ means hammer on - pull off
~ means a bend of some sort
/ means slide up
\ means slide down
Chords Used in this song:
D x00232
G 320003
Bm x24432
A x02220
Introduction:
Harmonica solo arranged for guitar (its only approximate so play around with it and I'm open to amendments)
e----------------------------------------------------------------------------------
B----------------------------------------------------------------------------------
G----------------------------------------------------------------------------------
D--------0--0--2-4--4-5-5-4--4-2-0-0-2-0---0-----0---------------------
A--0-2--------------------------------------------------2~-----------------------
E-----------------------------------------------------------------------------------
D G D
I had nothing to say on Christmas Day
Bm A G
When you threw all your clothes in the snow
D G D
When you burnt your hair knocked over chairs
Bm G D
I just tried to stay out of your way
D G D
But when you fell asleep with blood on your teeth
Bm G D
I got in my car and drove away
D G
Listen to me Butterfly
G D
Theres only so much wine
D Bm G
That you can drink in one life
G D
And it will never be enough
Bm G D
To save you from the bottom of your glass
Again a harmonica instrumental arranged for guitar - approximately
e-------------------------------------------------------------------------------------
B--------------------------------------------------------------------------------------
G-----------------------------------------------2-2--2--2-4-2-2-------2-------------
D--------0--0--2-4--4-2-0--0-----0-----4-----------------------4----------------
A--0-2----------------------------2--------------------------------------0-----------
E--------------------------------------------------------------------------------------
*note the final two notes are played together
D G D
Where the state highway starts I stopped my car
Bm A G
I got out and stared at the stars
Again a harmonica instrumental arranged for guitar - approximately
D
e---------------------------------2---------------------------------------------
B---------------------------------3---------------------------------------------
G----------2-2-2-2-4-2-2-----2--------------------------------------------
D-----4-----------------------4--0---------------------------------------------
A---------------------------------0---------------------------------------------
E---------------------------------x----------------------------------------------





 

 

Up Falling Rock Hill (Handsome Family)

From: "In The Air" (2000 - Carrot Top)
Posted by Fatelvis and transcribed by Stephen McCann

 

In my notation
^ means hammer on - pull off
~ means a bend of some sort
/ means slide up
\ means slide down
Chords used in this song:
A 002220
D x00232
E 022100
A D A
Up Falling Rock Hill where the leaves swoop like bats
A D A
I shot my brother William five times in the back
A D A
"Have mercy, have mercy, dear Brother" he cried
A D A
But the wind had no mercy and neither did I
E D A
I watched as his blood ran through dead grass
E D A
I watched as the black ants crawled through his hands
A D A
Up falling Rock Hill the wind softly moaned
A D A
And down, down came I with blood on my clothes
E D A
Cicadas were hissing and the whippoorwill called
A D A
But the earth didn't open and the sky didn't fall
e----------------------------------------------------------
B----------------------------------------------------------
G----------------------------------------------------------
D--2------------------------------------------------------
A-----4-2-0-0----------0-2-2~2~-0-------------------
E----------------4-0-2------------------------------------
e----------------------------------------------------------
B----------------------------------------------------------
G----------------------------------------------------------
D--2--------------------------------------------------------
A-----4-2-0-0----------0-2~0---------------------------
E----------------4-0-2-------------------------------------
Finish with A E A